ISO-10303-21;
HEADER;
/* Generated by software containing ST-Developer
 * from STEP Tools, Inc. (www.steptools.com) 
 */
/* OPTION: using custom schema-name function */

FILE_DESCRIPTION(
/* description */ (''),
/* implementation_level */ '2;1');

FILE_NAME(
/* name */ '1744.M.133_X-Ray',
/* time_stamp */ '2022-09-22T15:51:57+02:00',
/* author */ (''),
/* organization */ (''),
/* preprocessor_version */ 'ST-DEVELOPER v16.5',
/* originating_system */ '',
/* authorisation */ '');

FILE_SCHEMA (('CONFIG_CONTROL_DESIGN'));
ENDSEC;

DATA;
#10=SHAPE_REPRESENTATION_RELATIONSHIP('','',#190,#13);
#11=MANIFOLD_SOLID_BREP('brep_2',#14);
#12=MANIFOLD_SOLID_BREP('brep_1',#15);
#13=ADVANCED_BREP_SHAPE_REPRESENTATION('brep_rep_0',(#11,#12,#200),#189);
#14=CLOSED_SHELL('',(#16,#17,#18,#19));
#15=CLOSED_SHELL('',(#20,#21,#22,#23));
#16=ADVANCED_FACE('',(#24),#100,.T.);
#17=ADVANCED_FACE('',(#25),#96,.T.);
#18=ADVANCED_FACE('',(#26),#97,.T.);
#19=ADVANCED_FACE('',(#27),#101,.T.);
#20=ADVANCED_FACE('',(#28),#102,.T.);
#21=ADVANCED_FACE('',(#29),#98,.T.);
#22=ADVANCED_FACE('',(#30),#99,.T.);
#23=ADVANCED_FACE('',(#31),#103,.T.);
#24=FACE_OUTER_BOUND('',#32,.T.);
#25=FACE_OUTER_BOUND('',#33,.T.);
#26=FACE_OUTER_BOUND('',#34,.T.);
#27=FACE_OUTER_BOUND('',#35,.T.);
#28=FACE_OUTER_BOUND('',#36,.T.);
#29=FACE_OUTER_BOUND('',#37,.T.);
#30=FACE_OUTER_BOUND('',#38,.T.);
#31=FACE_OUTER_BOUND('',#39,.T.);
#32=EDGE_LOOP('',(#40,#41,#42,#43));
#33=EDGE_LOOP('',(#44,#45));
#34=EDGE_LOOP('',(#46,#47));
#35=EDGE_LOOP('',(#48,#49,#50,#51));
#36=EDGE_LOOP('',(#52,#53,#54,#55));
#37=EDGE_LOOP('',(#56,#57));
#38=EDGE_LOOP('',(#58,#59));
#39=EDGE_LOOP('',(#60,#61,#62,#63));
#40=ORIENTED_EDGE('',*,*,#64,.T.);
#41=ORIENTED_EDGE('',*,*,#65,.T.);
#42=ORIENTED_EDGE('',*,*,#66,.T.);
#43=ORIENTED_EDGE('',*,*,#67,.T.);
#44=ORIENTED_EDGE('',*,*,#68,.F.);
#45=ORIENTED_EDGE('',*,*,#64,.F.);
#46=ORIENTED_EDGE('',*,*,#66,.F.);
#47=ORIENTED_EDGE('',*,*,#69,.F.);
#48=ORIENTED_EDGE('',*,*,#68,.T.);
#49=ORIENTED_EDGE('',*,*,#67,.F.);
#50=ORIENTED_EDGE('',*,*,#69,.T.);
#51=ORIENTED_EDGE('',*,*,#65,.F.);
#52=ORIENTED_EDGE('',*,*,#70,.T.);
#53=ORIENTED_EDGE('',*,*,#71,.T.);
#54=ORIENTED_EDGE('',*,*,#72,.T.);
#55=ORIENTED_EDGE('',*,*,#73,.T.);
#56=ORIENTED_EDGE('',*,*,#74,.F.);
#57=ORIENTED_EDGE('',*,*,#70,.F.);
#58=ORIENTED_EDGE('',*,*,#72,.F.);
#59=ORIENTED_EDGE('',*,*,#75,.F.);
#60=ORIENTED_EDGE('',*,*,#74,.T.);
#61=ORIENTED_EDGE('',*,*,#73,.F.);
#62=ORIENTED_EDGE('',*,*,#75,.T.);
#63=ORIENTED_EDGE('',*,*,#71,.F.);
#64=EDGE_CURVE('',#88,#89,#76,.T.);
#65=EDGE_CURVE('',#89,#90,#77,.T.);
#66=EDGE_CURVE('',#90,#91,#78,.T.);
#67=EDGE_CURVE('',#91,#88,#79,.T.);
#68=EDGE_CURVE('',#89,#88,#80,.T.);
#69=EDGE_CURVE('',#91,#90,#81,.T.);
#70=EDGE_CURVE('',#92,#93,#82,.T.);
#71=EDGE_CURVE('',#93,#94,#83,.T.);
#72=EDGE_CURVE('',#94,#95,#84,.T.);
#73=EDGE_CURVE('',#95,#92,#85,.T.);
#74=EDGE_CURVE('',#93,#92,#86,.T.);
#75=EDGE_CURVE('',#95,#94,#87,.T.);
#76=(
BOUNDED_CURVE()
B_SPLINE_CURVE(2,(#222,#223,#224,#225,#226),.UNSPECIFIED.,.F.,.F.)
B_SPLINE_CURVE_WITH_KNOTS((3,2,3),(0.,706.858347057705,1413.71669411541),
 .UNSPECIFIED.)
CURVE()
GEOMETRIC_REPRESENTATION_ITEM()
RATIONAL_B_SPLINE_CURVE((1.,0.707106781186547,1.,0.707106781186547,1.))
REPRESENTATION_ITEM('')
);
#77=(
BOUNDED_CURVE()
B_SPLINE_CURVE(1,(#227,#228),.UNSPECIFIED.,.F.,.F.)
B_SPLINE_CURVE_WITH_KNOTS((2,2),(0.,35.),.UNSPECIFIED.)
CURVE()
GEOMETRIC_REPRESENTATION_ITEM()
RATIONAL_B_SPLINE_CURVE((1.,1.))
REPRESENTATION_ITEM('')
);
#78=(
BOUNDED_CURVE()
B_SPLINE_CURVE(2,(#229,#230,#231,#232,#233),.UNSPECIFIED.,.F.,.F.)
B_SPLINE_CURVE_WITH_KNOTS((3,2,3),(-1413.71669411541,-706.858347057705,
0.),.UNSPECIFIED.)
CURVE()
GEOMETRIC_REPRESENTATION_ITEM()
RATIONAL_B_SPLINE_CURVE((1.,0.707106781186547,1.,0.707106781186547,1.))
REPRESENTATION_ITEM('')
);
#79=(
BOUNDED_CURVE()
B_SPLINE_CURVE(1,(#234,#235),.UNSPECIFIED.,.F.,.F.)
B_SPLINE_CURVE_WITH_KNOTS((2,2),(-35.,0.),.UNSPECIFIED.)
CURVE()
GEOMETRIC_REPRESENTATION_ITEM()
RATIONAL_B_SPLINE_CURVE((1.,1.))
REPRESENTATION_ITEM('')
);
#80=(
BOUNDED_CURVE()
B_SPLINE_CURVE(2,(#236,#237,#238,#239,#240),.UNSPECIFIED.,.F.,.F.)
B_SPLINE_CURVE_WITH_KNOTS((3,2,3),(1413.71669411541,2120.57504117311,2827.43338823081),
 .UNSPECIFIED.)
CURVE()
GEOMETRIC_REPRESENTATION_ITEM()
RATIONAL_B_SPLINE_CURVE((1.,0.707106781186548,1.,0.707106781186548,1.))
REPRESENTATION_ITEM('')
);
#81=(
BOUNDED_CURVE()
B_SPLINE_CURVE(2,(#241,#242,#243,#244,#245),.UNSPECIFIED.,.F.,.F.)
B_SPLINE_CURVE_WITH_KNOTS((3,2,3),(-2827.43338823081,-2120.57504117311,
-1413.71669411541),.UNSPECIFIED.)
CURVE()
GEOMETRIC_REPRESENTATION_ITEM()
RATIONAL_B_SPLINE_CURVE((1.,0.707106781186548,1.,0.707106781186548,1.))
REPRESENTATION_ITEM('')
);
#82=(
BOUNDED_CURVE()
B_SPLINE_CURVE(2,(#254,#255,#256,#257,#258),.UNSPECIFIED.,.F.,.F.)
B_SPLINE_CURVE_WITH_KNOTS((3,2,3),(0.,706.858347057705,1413.71669411541),
 .UNSPECIFIED.)
CURVE()
GEOMETRIC_REPRESENTATION_ITEM()
RATIONAL_B_SPLINE_CURVE((1.,0.707106781186548,1.,0.707106781186548,1.))
REPRESENTATION_ITEM('')
);
#83=(
BOUNDED_CURVE()
B_SPLINE_CURVE(1,(#259,#260),.UNSPECIFIED.,.F.,.F.)
B_SPLINE_CURVE_WITH_KNOTS((2,2),(0.,2.),.UNSPECIFIED.)
CURVE()
GEOMETRIC_REPRESENTATION_ITEM()
RATIONAL_B_SPLINE_CURVE((1.,1.))
REPRESENTATION_ITEM('')
);
#84=(
BOUNDED_CURVE()
B_SPLINE_CURVE(2,(#261,#262,#263,#264,#265),.UNSPECIFIED.,.F.,.F.)
B_SPLINE_CURVE_WITH_KNOTS((3,2,3),(-1413.71669411541,-706.858347057705,
0.),.UNSPECIFIED.)
CURVE()
GEOMETRIC_REPRESENTATION_ITEM()
RATIONAL_B_SPLINE_CURVE((1.,0.707106781186548,1.,0.707106781186548,1.))
REPRESENTATION_ITEM('')
);
#85=(
BOUNDED_CURVE()
B_SPLINE_CURVE(1,(#266,#267),.UNSPECIFIED.,.F.,.F.)
B_SPLINE_CURVE_WITH_KNOTS((2,2),(-2.,0.),.UNSPECIFIED.)
CURVE()
GEOMETRIC_REPRESENTATION_ITEM()
RATIONAL_B_SPLINE_CURVE((1.,1.))
REPRESENTATION_ITEM('')
);
#86=(
BOUNDED_CURVE()
B_SPLINE_CURVE(2,(#268,#269,#270,#271,#272),.UNSPECIFIED.,.F.,.F.)
B_SPLINE_CURVE_WITH_KNOTS((3,2,3),(1413.71669411541,2120.57504117311,2827.43338823081),
 .UNSPECIFIED.)
CURVE()
GEOMETRIC_REPRESENTATION_ITEM()
RATIONAL_B_SPLINE_CURVE((1.,0.707106781186548,1.,0.707106781186548,1.))
REPRESENTATION_ITEM('')
);
#87=(
BOUNDED_CURVE()
B_SPLINE_CURVE(2,(#273,#274,#275,#276,#277),.UNSPECIFIED.,.F.,.F.)
B_SPLINE_CURVE_WITH_KNOTS((3,2,3),(-2827.43338823081,-2120.57504117311,
-1413.71669411541),.UNSPECIFIED.)
CURVE()
GEOMETRIC_REPRESENTATION_ITEM()
RATIONAL_B_SPLINE_CURVE((1.,0.707106781186548,1.,0.707106781186548,1.))
REPRESENTATION_ITEM('')
);
#88=VERTEX_POINT('',#218);
#89=VERTEX_POINT('',#219);
#90=VERTEX_POINT('',#220);
#91=VERTEX_POINT('',#221);
#92=VERTEX_POINT('',#250);
#93=VERTEX_POINT('',#251);
#94=VERTEX_POINT('',#252);
#95=VERTEX_POINT('',#253);
#96=PLANE('',#193);
#97=PLANE('',#194);
#98=PLANE('',#197);
#99=PLANE('',#198);
#100=CYLINDRICAL_SURFACE('',#192,420.);
#101=CYLINDRICAL_SURFACE('',#195,420.);
#102=CYLINDRICAL_SURFACE('',#196,450.);
#103=CYLINDRICAL_SURFACE('',#199,450.);
#104=SHAPE_DEFINITION_REPRESENTATION(#105,#190);
#105=PRODUCT_DEFINITION_SHAPE('Document','',#107);
#106=PRODUCT_DEFINITION_CONTEXT('3D Mechanical Parts',#179,'design');
#107=PRODUCT_DEFINITION('A','First version',#149,#106);
#108=DATE_TIME_ROLE('classification_date');
#109=DATE_TIME_ROLE('creation_date');
#110=APPLIED_DATE_AND_TIME_ASSIGNMENT(#134,#108,(#113));
#111=APPLIED_DATE_AND_TIME_ASSIGNMENT(#136,#109,(#107));
#112=SECURITY_CLASSIFICATION_LEVEL('unclassified');
#113=SECURITY_CLASSIFICATION('A','Security for version',#112);
#114=APPLIED_SECURITY_CLASSIFICATION_ASSIGNMENT(#113,(#149));
#115=APPROVAL_ROLE('Version approval');
#116=APPROVAL_ROLE('Version Security approval');
#117=APPROVAL_ROLE('Definition approval');
#118=APPROVAL_PERSON_ORGANIZATION(#167,#143,#115);
#119=APPROVAL_PERSON_ORGANIZATION(#168,#144,#116);
#120=APPROVAL_PERSON_ORGANIZATION(#171,#145,#117);
#121=COORDINATED_UNIVERSAL_TIME_OFFSET(5,0,.BEHIND.);
#122=LOCAL_TIME(0,0,0.,#121);
#123=LOCAL_TIME(0,0,0.,#121);
#124=LOCAL_TIME(0,0,0.,#121);
#125=LOCAL_TIME(0,0,0.,#121);
#126=LOCAL_TIME(0,0,0.,#121);
#127=CALENDAR_DATE(1999,1,1);
#128=CALENDAR_DATE(1999,1,1);
#129=CALENDAR_DATE(1999,1,1);
#130=CALENDAR_DATE(1999,1,1);
#131=CALENDAR_DATE(1999,1,1);
#132=DATE_AND_TIME(#127,#122);
#133=DATE_AND_TIME(#128,#123);
#134=DATE_AND_TIME(#129,#124);
#135=DATE_AND_TIME(#130,#125);
#136=DATE_AND_TIME(#131,#126);
#137=APPROVAL_DATE_TIME(#132,#143);
#138=APPROVAL_DATE_TIME(#133,#144);
#139=APPROVAL_DATE_TIME(#135,#145);
#140=APPROVAL_STATUS('not_yet_approved');
#141=APPROVAL_STATUS('not_yet_approved');
#142=APPROVAL_STATUS('approved');
#143=APPROVAL(#140,'Version approval');
#144=APPROVAL(#141,'Version Security approval');
#145=APPROVAL(#142,'Definition approval');
#146=APPLIED_APPROVAL_ASSIGNMENT(#143,(#149));
#147=APPLIED_APPROVAL_ASSIGNMENT(#144,(#113));
#148=APPLIED_APPROVAL_ASSIGNMENT(#145,(#107));
#149=PRODUCT_DEFINITION_FORMATION_WITH_SPECIFIED_SOURCE('A',
'First version',#181,.MADE.);
#150=PERSON_AND_ORGANIZATION_ROLE('design_owner');
#151=PERSON_AND_ORGANIZATION_ROLE('creator');
#152=PERSON_AND_ORGANIZATION_ROLE('design_supplier');
#153=PERSON_AND_ORGANIZATION_ROLE('classification_officer');
#154=PERSON_AND_ORGANIZATION_ROLE('creator');
#155=ORGANIZATION('STI','lab','lab');
#156=ORGANIZATION('STI','unknown','unknown');
#157=ORGANIZATION('STI','unknown','unknown');
#158=ORGANIZATION('STI','unknown','unknown');
#159=ORGANIZATION('STI','unknown','unknown');
#160=ORGANIZATION('STI','unknown','unknown');
#161=ORGANIZATION('STI','unknown','unknown');
#162=PERSON('1','Box','vc60',$,$,$);
#163=PERSON('2','last','first',$,$,$);
#164=PERSON('3','President','Mr.',$,$,$);
#165=PERSON_AND_ORGANIZATION(#162,#155);
#166=PERSON_AND_ORGANIZATION(#163,#156);
#167=PERSON_AND_ORGANIZATION(#164,#157);
#168=PERSON_AND_ORGANIZATION(#164,#158);
#169=PERSON_AND_ORGANIZATION(#164,#159);
#170=PERSON_AND_ORGANIZATION(#163,#160);
#171=PERSON_AND_ORGANIZATION(#164,#161);
#172=APPLIED_PERSON_AND_ORGANIZATION_ASSIGNMENT(#165,#150,(#181));
#173=APPLIED_PERSON_AND_ORGANIZATION_ASSIGNMENT(#166,#151,(#149));
#174=APPLIED_PERSON_AND_ORGANIZATION_ASSIGNMENT(#166,#152,(#149));
#175=APPLIED_PERSON_AND_ORGANIZATION_ASSIGNMENT(#169,#153,(#113));
#176=APPLIED_PERSON_AND_ORGANIZATION_ASSIGNMENT(#170,#154,(#107));
#177=PRODUCT_RELATED_PRODUCT_CATEGORY('detail','detail',(#181));
#178=APPLICATION_PROTOCOL_DEFINITION('International Standard',
'config_control_design',1994,#179);
#179=APPLICATION_CONTEXT(
'configuration controlled 3d designs of mechanical parts and assemblie
s');
#180=PRODUCT_CONTEXT('3D Mechanical Parts',#179,'mechanical');
#181=PRODUCT('Document','Document','',(#180));
#182=(
LENGTH_UNIT()
NAMED_UNIT(*)
SI_UNIT(.MILLI.,.METRE.)
);
#183=(
NAMED_UNIT(*)
PLANE_ANGLE_UNIT()
SI_UNIT($,.RADIAN.)
);
#184=DIMENSIONAL_EXPONENTS(0.,0.,0.,0.,0.,0.,0.);
#185=PLANE_ANGLE_MEASURE_WITH_UNIT(PLANE_ANGLE_MEASURE(0.01745329252),#183);
#186=(
CONVERSION_BASED_UNIT('DEGREES',#185)
NAMED_UNIT(#184)
PLANE_ANGLE_UNIT()
);
#187=(
NAMED_UNIT(*)
SI_UNIT($,.STERADIAN.)
SOLID_ANGLE_UNIT()
);
#188=UNCERTAINTY_MEASURE_WITH_UNIT(LENGTH_MEASURE(0.001),#182,
'DISTANCE_ACCURACY_VALUE',
'Maximum model space distance between geometric entities at asserted c
onnectivities');
#189=(
GEOMETRIC_REPRESENTATION_CONTEXT(3)
GLOBAL_UNCERTAINTY_ASSIGNED_CONTEXT((#188))
GLOBAL_UNIT_ASSIGNED_CONTEXT((#187,#186,#182))
REPRESENTATION_CONTEXT('ID1','3D')
);
#190=SHAPE_REPRESENTATION('Document',(#191,#200),#189);
#191=AXIS2_PLACEMENT_3D('',#213,#201,#202);
#192=AXIS2_PLACEMENT_3D('',#214,#203,$);
#193=AXIS2_PLACEMENT_3D('',#215,#204,$);
#194=AXIS2_PLACEMENT_3D('',#216,#205,$);
#195=AXIS2_PLACEMENT_3D('',#217,#206,$);
#196=AXIS2_PLACEMENT_3D('',#246,#207,$);
#197=AXIS2_PLACEMENT_3D('',#247,#208,$);
#198=AXIS2_PLACEMENT_3D('',#248,#209,$);
#199=AXIS2_PLACEMENT_3D('',#249,#210,$);
#200=AXIS2_PLACEMENT_3D('',#278,#211,#212);
#201=DIRECTION('',(0.,0.,1.));
#202=DIRECTION('',(1.,0.,0.));
#203=DIRECTION('',(0.,-5.41365893912457E-16,1.));
#204=DIRECTION('',(0.,0.,-1.));
#205=DIRECTION('',(0.,0.,1.));
#206=DIRECTION('',(0.,0.,1.));
#207=DIRECTION('',(0.,-5.05274834318293E-16,1.));
#208=DIRECTION('',(0.,0.,-1.));
#209=DIRECTION('',(0.,0.,1.));
#210=DIRECTION('',(0.,0.,1.));
#211=DIRECTION('',(0.,0.,1.));
#212=DIRECTION('',(1.,0.,0.));
#213=CARTESIAN_POINT('',(0.,0.,0.));
#214=CARTESIAN_POINT('',(-1.33874134918737E-29,4.01943669423047E-14,1443.88656192644));
#215=CARTESIAN_POINT('',(504.012,-504.012,1426.38656192644));
#216=CARTESIAN_POINT('',(-504.012,-504.012,1461.38656192644));
#217=CARTESIAN_POINT('',(0.,0.,1443.88656192644));
#218=CARTESIAN_POINT('',(420.,-8.57252759403147E-15,1426.38656192644));
#219=CARTESIAN_POINT('',(-420.,4.28252753273007E-15,1426.38656192644));
#220=CARTESIAN_POINT('',(-420.,4.28252753273007E-15,1461.38656192644));
#221=CARTESIAN_POINT('',(420.,-8.57252759403147E-15,1461.38656192644));
#222=CARTESIAN_POINT('',(420.,0.,1426.38656192644));
#223=CARTESIAN_POINT('',(420.,420.,1426.38656192644));
#224=CARTESIAN_POINT('',(1.28475825981901E-14,420.,1426.38656192644));
#225=CARTESIAN_POINT('',(-420.,420.,1426.38656192644));
#226=CARTESIAN_POINT('',(-420.,2.56951651963804E-14,1426.38656192644));
#227=CARTESIAN_POINT('',(-420.,0.,1426.38656192644));
#228=CARTESIAN_POINT('',(-420.,0.,1461.38656192644));
#229=CARTESIAN_POINT('',(-420.,2.56951651963804E-14,1461.38656192644));
#230=CARTESIAN_POINT('',(-420.,420.,1461.38656192644));
#231=CARTESIAN_POINT('',(1.28475825981903E-14,420.,1461.38656192644));
#232=CARTESIAN_POINT('',(420.,420.,1461.38656192644));
#233=CARTESIAN_POINT('',(420.,0.,1461.38656192644));
#234=CARTESIAN_POINT('',(420.,0.,1461.38656192644));
#235=CARTESIAN_POINT('',(420.,0.,1426.38656192644));
#236=CARTESIAN_POINT('',(-420.,0.,1426.38656192644));
#237=CARTESIAN_POINT('',(-420.,-420.,1426.38656192644));
#238=CARTESIAN_POINT('',(-2.57175827820944E-14,-420.,1426.38656192644));
#239=CARTESIAN_POINT('',(420.,-420.,1426.38656192644));
#240=CARTESIAN_POINT('',(420.,-5.14351655641888E-14,1426.38656192644));
#241=CARTESIAN_POINT('',(420.,-5.14351655641888E-14,1461.38656192644));
#242=CARTESIAN_POINT('',(420.,-420.,1461.38656192644));
#243=CARTESIAN_POINT('',(-2.57175827820944E-14,-420.,1461.38656192644));
#244=CARTESIAN_POINT('',(-420.,-420.,1461.38656192644));
#245=CARTESIAN_POINT('',(-420.,0.,1461.38656192644));
#246=CARTESIAN_POINT('',(2.00971834711523E-14,2.00971834711525E-14,1427.38656192644));
#247=CARTESIAN_POINT('',(540.012,-540.012,1426.38656192644));
#248=CARTESIAN_POINT('',(-540.012,-540.012,1428.38656192644));
#249=CARTESIAN_POINT('',(0.,0.,1427.38656192644));
#250=CARTESIAN_POINT('',(450.,-1.5883912150656E-14,1426.38656192644));
#251=CARTESIAN_POINT('',(-450.,9.18485099360517E-15,1426.38656192644));
#252=CARTESIAN_POINT('',(-450.,9.1848509936052E-15,1428.38656192644));
#253=CARTESIAN_POINT('',(450.,-1.5883912150656E-14,1428.38656192644));
#254=CARTESIAN_POINT('',(450.,0.,1426.38656192644));
#255=CARTESIAN_POINT('',(450.,450.,1426.38656192644));
#256=CARTESIAN_POINT('',(2.75545529808155E-14,450.,1426.38656192644));
#257=CARTESIAN_POINT('',(-450.,450.,1426.38656192644));
#258=CARTESIAN_POINT('',(-450.,5.5109105961631E-14,1426.38656192644));
#259=CARTESIAN_POINT('',(-450.,0.,1426.38656192644));
#260=CARTESIAN_POINT('',(-450.,0.,1428.38656192644));
#261=CARTESIAN_POINT('',(-450.,5.51091059616312E-14,1428.38656192644));
#262=CARTESIAN_POINT('',(-450.,450.,1428.38656192644));
#263=CARTESIAN_POINT('',(2.75545529808156E-14,450.,1428.38656192644));
#264=CARTESIAN_POINT('',(450.,450.,1428.38656192644));
#265=CARTESIAN_POINT('',(450.,0.,1428.38656192644));
#266=CARTESIAN_POINT('',(450.,0.,1428.38656192644));
#267=CARTESIAN_POINT('',(450.,0.,1426.38656192644));
#268=CARTESIAN_POINT('',(-450.,0.,1426.38656192644));
#269=CARTESIAN_POINT('',(-450.,-450.,1426.38656192644));
#270=CARTESIAN_POINT('',(-4.76517364519679E-14,-450.,1426.38656192644));
#271=CARTESIAN_POINT('',(450.,-450.,1426.38656192644));
#272=CARTESIAN_POINT('',(450.,-9.53034729039357E-14,1426.38656192644));
#273=CARTESIAN_POINT('',(450.,-9.53034729039357E-14,1428.38656192644));
#274=CARTESIAN_POINT('',(450.,-450.,1428.38656192644));
#275=CARTESIAN_POINT('',(-4.76517364519679E-14,-450.,1428.38656192644));
#276=CARTESIAN_POINT('',(-450.,-450.,1428.38656192644));
#277=CARTESIAN_POINT('',(-450.,0.,1428.38656192644));
#278=CARTESIAN_POINT('',(0.,0.,0.));
ENDSEC;
END-ISO-10303-21;
