ISO-10303-21;
HEADER;
/* Generated by software containing ST-Developer
 * from STEP Tools, Inc. (www.steptools.com) 
 */
/* OPTION: using custom schema-name function */

FILE_DESCRIPTION(
/* description */ (''),
/* implementation_level */ '2;1');

FILE_NAME(
/* name */ '1744.M.132_X-Ray',
/* time_stamp */ '2022-09-22T15:48:45+02:00',
/* author */ (''),
/* organization */ (''),
/* preprocessor_version */ 'ST-DEVELOPER v16.5',
/* originating_system */ '',
/* authorisation */ '');

FILE_SCHEMA (('CONFIG_CONTROL_DESIGN'));
ENDSEC;

DATA;
#10=SHAPE_REPRESENTATION_RELATIONSHIP('','',#236,#14);
#11=MANIFOLD_SOLID_BREP('brep_15',#15);
#12=MANIFOLD_SOLID_BREP('brep_12',#16);
#13=MANIFOLD_SOLID_BREP('brep_11',#17);
#14=ADVANCED_BREP_SHAPE_REPRESENTATION('brep_rep_0',(#11,#12,#13,#250),
#235);
#15=CLOSED_SHELL('',(#18,#19,#20,#21));
#16=CLOSED_SHELL('',(#22,#23,#24,#25));
#17=CLOSED_SHELL('',(#26,#27,#28,#29));
#18=ADVANCED_FACE('',(#30),#144,.T.);
#19=ADVANCED_FACE('',(#31),#138,.T.);
#20=ADVANCED_FACE('',(#32),#139,.T.);
#21=ADVANCED_FACE('',(#33),#145,.T.);
#22=ADVANCED_FACE('',(#34),#146,.T.);
#23=ADVANCED_FACE('',(#35),#140,.T.);
#24=ADVANCED_FACE('',(#36),#141,.T.);
#25=ADVANCED_FACE('',(#37),#147,.T.);
#26=ADVANCED_FACE('',(#38),#148,.T.);
#27=ADVANCED_FACE('',(#39),#142,.T.);
#28=ADVANCED_FACE('',(#40),#143,.T.);
#29=ADVANCED_FACE('',(#41),#149,.T.);
#30=FACE_OUTER_BOUND('',#42,.T.);
#31=FACE_OUTER_BOUND('',#43,.T.);
#32=FACE_OUTER_BOUND('',#44,.T.);
#33=FACE_OUTER_BOUND('',#45,.T.);
#34=FACE_OUTER_BOUND('',#46,.T.);
#35=FACE_OUTER_BOUND('',#47,.T.);
#36=FACE_OUTER_BOUND('',#48,.T.);
#37=FACE_OUTER_BOUND('',#49,.T.);
#38=FACE_OUTER_BOUND('',#50,.T.);
#39=FACE_OUTER_BOUND('',#51,.T.);
#40=FACE_OUTER_BOUND('',#52,.T.);
#41=FACE_OUTER_BOUND('',#53,.T.);
#42=EDGE_LOOP('',(#54,#55,#56,#57));
#43=EDGE_LOOP('',(#58,#59));
#44=EDGE_LOOP('',(#60,#61));
#45=EDGE_LOOP('',(#62,#63,#64,#65));
#46=EDGE_LOOP('',(#66,#67,#68,#69));
#47=EDGE_LOOP('',(#70,#71));
#48=EDGE_LOOP('',(#72,#73));
#49=EDGE_LOOP('',(#74,#75,#76,#77));
#50=EDGE_LOOP('',(#78,#79,#80,#81));
#51=EDGE_LOOP('',(#82,#83));
#52=EDGE_LOOP('',(#84,#85));
#53=EDGE_LOOP('',(#86,#87,#88,#89));
#54=ORIENTED_EDGE('',*,*,#90,.T.);
#55=ORIENTED_EDGE('',*,*,#91,.T.);
#56=ORIENTED_EDGE('',*,*,#92,.T.);
#57=ORIENTED_EDGE('',*,*,#93,.T.);
#58=ORIENTED_EDGE('',*,*,#94,.F.);
#59=ORIENTED_EDGE('',*,*,#90,.F.);
#60=ORIENTED_EDGE('',*,*,#92,.F.);
#61=ORIENTED_EDGE('',*,*,#95,.F.);
#62=ORIENTED_EDGE('',*,*,#94,.T.);
#63=ORIENTED_EDGE('',*,*,#93,.F.);
#64=ORIENTED_EDGE('',*,*,#95,.T.);
#65=ORIENTED_EDGE('',*,*,#91,.F.);
#66=ORIENTED_EDGE('',*,*,#96,.T.);
#67=ORIENTED_EDGE('',*,*,#97,.T.);
#68=ORIENTED_EDGE('',*,*,#98,.T.);
#69=ORIENTED_EDGE('',*,*,#99,.T.);
#70=ORIENTED_EDGE('',*,*,#100,.F.);
#71=ORIENTED_EDGE('',*,*,#96,.F.);
#72=ORIENTED_EDGE('',*,*,#98,.F.);
#73=ORIENTED_EDGE('',*,*,#101,.F.);
#74=ORIENTED_EDGE('',*,*,#100,.T.);
#75=ORIENTED_EDGE('',*,*,#99,.F.);
#76=ORIENTED_EDGE('',*,*,#101,.T.);
#77=ORIENTED_EDGE('',*,*,#97,.F.);
#78=ORIENTED_EDGE('',*,*,#102,.T.);
#79=ORIENTED_EDGE('',*,*,#103,.T.);
#80=ORIENTED_EDGE('',*,*,#104,.T.);
#81=ORIENTED_EDGE('',*,*,#105,.T.);
#82=ORIENTED_EDGE('',*,*,#106,.F.);
#83=ORIENTED_EDGE('',*,*,#102,.F.);
#84=ORIENTED_EDGE('',*,*,#104,.F.);
#85=ORIENTED_EDGE('',*,*,#107,.F.);
#86=ORIENTED_EDGE('',*,*,#106,.T.);
#87=ORIENTED_EDGE('',*,*,#105,.F.);
#88=ORIENTED_EDGE('',*,*,#107,.T.);
#89=ORIENTED_EDGE('',*,*,#103,.F.);
#90=EDGE_CURVE('',#126,#127,#108,.T.);
#91=EDGE_CURVE('',#127,#128,#109,.T.);
#92=EDGE_CURVE('',#128,#129,#110,.T.);
#93=EDGE_CURVE('',#129,#126,#111,.T.);
#94=EDGE_CURVE('',#127,#126,#112,.T.);
#95=EDGE_CURVE('',#129,#128,#113,.T.);
#96=EDGE_CURVE('',#130,#131,#114,.T.);
#97=EDGE_CURVE('',#131,#132,#115,.T.);
#98=EDGE_CURVE('',#132,#133,#116,.T.);
#99=EDGE_CURVE('',#133,#130,#117,.T.);
#100=EDGE_CURVE('',#131,#130,#118,.T.);
#101=EDGE_CURVE('',#133,#132,#119,.T.);
#102=EDGE_CURVE('',#134,#135,#120,.T.);
#103=EDGE_CURVE('',#135,#136,#121,.T.);
#104=EDGE_CURVE('',#136,#137,#122,.T.);
#105=EDGE_CURVE('',#137,#134,#123,.T.);
#106=EDGE_CURVE('',#135,#134,#124,.T.);
#107=EDGE_CURVE('',#137,#136,#125,.T.);
#108=(
BOUNDED_CURVE()
B_SPLINE_CURVE(2,(#276,#277,#278,#279,#280),.UNSPECIFIED.,.F.,.F.)
B_SPLINE_CURVE_WITH_KNOTS((3,2,3),(0.,471.238898038469,942.477796076938),
 .UNSPECIFIED.)
CURVE()
GEOMETRIC_REPRESENTATION_ITEM()
RATIONAL_B_SPLINE_CURVE((1.,0.707106781186548,1.,0.707106781186548,1.))
REPRESENTATION_ITEM('')
);
#109=(
BOUNDED_CURVE()
B_SPLINE_CURVE(1,(#281,#282),.UNSPECIFIED.,.F.,.F.)
B_SPLINE_CURVE_WITH_KNOTS((2,2),(0.,30.),.UNSPECIFIED.)
CURVE()
GEOMETRIC_REPRESENTATION_ITEM()
RATIONAL_B_SPLINE_CURVE((1.,1.))
REPRESENTATION_ITEM('')
);
#110=(
BOUNDED_CURVE()
B_SPLINE_CURVE(2,(#283,#284,#285,#286,#287),.UNSPECIFIED.,.F.,.F.)
B_SPLINE_CURVE_WITH_KNOTS((3,2,3),(-942.477796076938,-471.238898038469,
0.),.UNSPECIFIED.)
CURVE()
GEOMETRIC_REPRESENTATION_ITEM()
RATIONAL_B_SPLINE_CURVE((1.,0.707106781186548,1.,0.707106781186548,1.))
REPRESENTATION_ITEM('')
);
#111=(
BOUNDED_CURVE()
B_SPLINE_CURVE(1,(#288,#289),.UNSPECIFIED.,.F.,.F.)
B_SPLINE_CURVE_WITH_KNOTS((2,2),(-30.,0.),.UNSPECIFIED.)
CURVE()
GEOMETRIC_REPRESENTATION_ITEM()
RATIONAL_B_SPLINE_CURVE((1.,1.))
REPRESENTATION_ITEM('')
);
#112=(
BOUNDED_CURVE()
B_SPLINE_CURVE(2,(#290,#291,#292,#293,#294),.UNSPECIFIED.,.F.,.F.)
B_SPLINE_CURVE_WITH_KNOTS((3,2,3),(942.477796076938,1413.71669411541,1884.95559215388),
 .UNSPECIFIED.)
CURVE()
GEOMETRIC_REPRESENTATION_ITEM()
RATIONAL_B_SPLINE_CURVE((1.,0.707106781186548,1.,0.707106781186548,1.))
REPRESENTATION_ITEM('')
);
#113=(
BOUNDED_CURVE()
B_SPLINE_CURVE(2,(#295,#296,#297,#298,#299),.UNSPECIFIED.,.F.,.F.)
B_SPLINE_CURVE_WITH_KNOTS((3,2,3),(-1884.95559215388,-1413.71669411541,
-942.477796076938),.UNSPECIFIED.)
CURVE()
GEOMETRIC_REPRESENTATION_ITEM()
RATIONAL_B_SPLINE_CURVE((1.,0.707106781186548,1.,0.707106781186548,1.))
REPRESENTATION_ITEM('')
);
#114=(
BOUNDED_CURVE()
B_SPLINE_CURVE(2,(#308,#309,#310,#311,#312),.UNSPECIFIED.,.F.,.F.)
B_SPLINE_CURVE_WITH_KNOTS((3,2,3),(0.,471.238898038469,942.477796076938),
 .UNSPECIFIED.)
CURVE()
GEOMETRIC_REPRESENTATION_ITEM()
RATIONAL_B_SPLINE_CURVE((1.,0.707106781186548,1.,0.707106781186548,1.))
REPRESENTATION_ITEM('')
);
#115=(
BOUNDED_CURVE()
B_SPLINE_CURVE(1,(#313,#314),.UNSPECIFIED.,.F.,.F.)
B_SPLINE_CURVE_WITH_KNOTS((2,2),(0.,30.),.UNSPECIFIED.)
CURVE()
GEOMETRIC_REPRESENTATION_ITEM()
RATIONAL_B_SPLINE_CURVE((1.,1.))
REPRESENTATION_ITEM('')
);
#116=(
BOUNDED_CURVE()
B_SPLINE_CURVE(2,(#315,#316,#317,#318,#319),.UNSPECIFIED.,.F.,.F.)
B_SPLINE_CURVE_WITH_KNOTS((3,2,3),(-942.477796076938,-471.238898038469,
0.),.UNSPECIFIED.)
CURVE()
GEOMETRIC_REPRESENTATION_ITEM()
RATIONAL_B_SPLINE_CURVE((1.,0.707106781186548,1.,0.707106781186548,1.))
REPRESENTATION_ITEM('')
);
#117=(
BOUNDED_CURVE()
B_SPLINE_CURVE(1,(#320,#321),.UNSPECIFIED.,.F.,.F.)
B_SPLINE_CURVE_WITH_KNOTS((2,2),(-30.,0.),.UNSPECIFIED.)
CURVE()
GEOMETRIC_REPRESENTATION_ITEM()
RATIONAL_B_SPLINE_CURVE((1.,1.))
REPRESENTATION_ITEM('')
);
#118=(
BOUNDED_CURVE()
B_SPLINE_CURVE(2,(#322,#323,#324,#325,#326),.UNSPECIFIED.,.F.,.F.)
B_SPLINE_CURVE_WITH_KNOTS((3,2,3),(942.477796076938,1413.71669411541,1884.95559215388),
 .UNSPECIFIED.)
CURVE()
GEOMETRIC_REPRESENTATION_ITEM()
RATIONAL_B_SPLINE_CURVE((1.,0.707106781186548,1.,0.707106781186548,1.))
REPRESENTATION_ITEM('')
);
#119=(
BOUNDED_CURVE()
B_SPLINE_CURVE(2,(#327,#328,#329,#330,#331),.UNSPECIFIED.,.F.,.F.)
B_SPLINE_CURVE_WITH_KNOTS((3,2,3),(-1884.95559215388,-1413.71669411541,
-942.477796076938),.UNSPECIFIED.)
CURVE()
GEOMETRIC_REPRESENTATION_ITEM()
RATIONAL_B_SPLINE_CURVE((1.,0.707106781186548,1.,0.707106781186548,1.))
REPRESENTATION_ITEM('')
);
#120=(
BOUNDED_CURVE()
B_SPLINE_CURVE(2,(#340,#341,#342,#343,#344),.UNSPECIFIED.,.F.,.F.)
B_SPLINE_CURVE_WITH_KNOTS((3,2,3),(0.,471.238898038469,942.477796076938),
 .UNSPECIFIED.)
CURVE()
GEOMETRIC_REPRESENTATION_ITEM()
RATIONAL_B_SPLINE_CURVE((1.,0.707106781186548,1.,0.707106781186548,1.))
REPRESENTATION_ITEM('')
);
#121=(
BOUNDED_CURVE()
B_SPLINE_CURVE(1,(#345,#346),.UNSPECIFIED.,.F.,.F.)
B_SPLINE_CURVE_WITH_KNOTS((2,2),(0.,2.),.UNSPECIFIED.)
CURVE()
GEOMETRIC_REPRESENTATION_ITEM()
RATIONAL_B_SPLINE_CURVE((1.,1.))
REPRESENTATION_ITEM('')
);
#122=(
BOUNDED_CURVE()
B_SPLINE_CURVE(2,(#347,#348,#349,#350,#351),.UNSPECIFIED.,.F.,.F.)
B_SPLINE_CURVE_WITH_KNOTS((3,2,3),(-942.477796076938,-471.238898038469,
0.),.UNSPECIFIED.)
CURVE()
GEOMETRIC_REPRESENTATION_ITEM()
RATIONAL_B_SPLINE_CURVE((1.,0.707106781186548,1.,0.707106781186548,1.))
REPRESENTATION_ITEM('')
);
#123=(
BOUNDED_CURVE()
B_SPLINE_CURVE(1,(#352,#353),.UNSPECIFIED.,.F.,.F.)
B_SPLINE_CURVE_WITH_KNOTS((2,2),(-2.,0.),.UNSPECIFIED.)
CURVE()
GEOMETRIC_REPRESENTATION_ITEM()
RATIONAL_B_SPLINE_CURVE((1.,1.))
REPRESENTATION_ITEM('')
);
#124=(
BOUNDED_CURVE()
B_SPLINE_CURVE(2,(#354,#355,#356,#357,#358),.UNSPECIFIED.,.F.,.F.)
B_SPLINE_CURVE_WITH_KNOTS((3,2,3),(942.477796076938,1413.71669411541,1884.95559215388),
 .UNSPECIFIED.)
CURVE()
GEOMETRIC_REPRESENTATION_ITEM()
RATIONAL_B_SPLINE_CURVE((1.,0.707106781186547,1.,0.707106781186547,1.))
REPRESENTATION_ITEM('')
);
#125=(
BOUNDED_CURVE()
B_SPLINE_CURVE(2,(#359,#360,#361,#362,#363),.UNSPECIFIED.,.F.,.F.)
B_SPLINE_CURVE_WITH_KNOTS((3,2,3),(-1884.95559215388,-1413.71669411541,
-942.477796076938),.UNSPECIFIED.)
CURVE()
GEOMETRIC_REPRESENTATION_ITEM()
RATIONAL_B_SPLINE_CURVE((1.,0.707106781186547,1.,0.707106781186547,1.))
REPRESENTATION_ITEM('')
);
#126=VERTEX_POINT('',#272);
#127=VERTEX_POINT('',#273);
#128=VERTEX_POINT('',#274);
#129=VERTEX_POINT('',#275);
#130=VERTEX_POINT('',#304);
#131=VERTEX_POINT('',#305);
#132=VERTEX_POINT('',#306);
#133=VERTEX_POINT('',#307);
#134=VERTEX_POINT('',#336);
#135=VERTEX_POINT('',#337);
#136=VERTEX_POINT('',#338);
#137=VERTEX_POINT('',#339);
#138=PLANE('',#239);
#139=PLANE('',#240);
#140=PLANE('',#243);
#141=PLANE('',#244);
#142=PLANE('',#247);
#143=PLANE('',#248);
#144=CYLINDRICAL_SURFACE('',#238,270.);
#145=CYLINDRICAL_SURFACE('',#241,270.);
#146=CYLINDRICAL_SURFACE('',#242,270.);
#147=CYLINDRICAL_SURFACE('',#245,270.);
#148=CYLINDRICAL_SURFACE('',#246,300.);
#149=CYLINDRICAL_SURFACE('',#249,300.);
#150=SHAPE_DEFINITION_REPRESENTATION(#151,#236);
#151=PRODUCT_DEFINITION_SHAPE('Document','',#153);
#152=PRODUCT_DEFINITION_CONTEXT('3D Mechanical Parts',#225,'design');
#153=PRODUCT_DEFINITION('A','First version',#195,#152);
#154=DATE_TIME_ROLE('classification_date');
#155=DATE_TIME_ROLE('creation_date');
#156=APPLIED_DATE_AND_TIME_ASSIGNMENT(#180,#154,(#159));
#157=APPLIED_DATE_AND_TIME_ASSIGNMENT(#182,#155,(#153));
#158=SECURITY_CLASSIFICATION_LEVEL('unclassified');
#159=SECURITY_CLASSIFICATION('A','Security for version',#158);
#160=APPLIED_SECURITY_CLASSIFICATION_ASSIGNMENT(#159,(#195));
#161=APPROVAL_ROLE('Version approval');
#162=APPROVAL_ROLE('Version Security approval');
#163=APPROVAL_ROLE('Definition approval');
#164=APPROVAL_PERSON_ORGANIZATION(#213,#189,#161);
#165=APPROVAL_PERSON_ORGANIZATION(#214,#190,#162);
#166=APPROVAL_PERSON_ORGANIZATION(#217,#191,#163);
#167=COORDINATED_UNIVERSAL_TIME_OFFSET(5,0,.BEHIND.);
#168=LOCAL_TIME(0,0,0.,#167);
#169=LOCAL_TIME(0,0,0.,#167);
#170=LOCAL_TIME(0,0,0.,#167);
#171=LOCAL_TIME(0,0,0.,#167);
#172=LOCAL_TIME(0,0,0.,#167);
#173=CALENDAR_DATE(1999,1,1);
#174=CALENDAR_DATE(1999,1,1);
#175=CALENDAR_DATE(1999,1,1);
#176=CALENDAR_DATE(1999,1,1);
#177=CALENDAR_DATE(1999,1,1);
#178=DATE_AND_TIME(#173,#168);
#179=DATE_AND_TIME(#174,#169);
#180=DATE_AND_TIME(#175,#170);
#181=DATE_AND_TIME(#176,#171);
#182=DATE_AND_TIME(#177,#172);
#183=APPROVAL_DATE_TIME(#178,#189);
#184=APPROVAL_DATE_TIME(#179,#190);
#185=APPROVAL_DATE_TIME(#181,#191);
#186=APPROVAL_STATUS('not_yet_approved');
#187=APPROVAL_STATUS('not_yet_approved');
#188=APPROVAL_STATUS('approved');
#189=APPROVAL(#186,'Version approval');
#190=APPROVAL(#187,'Version Security approval');
#191=APPROVAL(#188,'Definition approval');
#192=APPLIED_APPROVAL_ASSIGNMENT(#189,(#195));
#193=APPLIED_APPROVAL_ASSIGNMENT(#190,(#159));
#194=APPLIED_APPROVAL_ASSIGNMENT(#191,(#153));
#195=PRODUCT_DEFINITION_FORMATION_WITH_SPECIFIED_SOURCE('A',
'First version',#227,.MADE.);
#196=PERSON_AND_ORGANIZATION_ROLE('design_owner');
#197=PERSON_AND_ORGANIZATION_ROLE('creator');
#198=PERSON_AND_ORGANIZATION_ROLE('design_supplier');
#199=PERSON_AND_ORGANIZATION_ROLE('classification_officer');
#200=PERSON_AND_ORGANIZATION_ROLE('creator');
#201=ORGANIZATION('STI','lab','lab');
#202=ORGANIZATION('STI','unknown','unknown');
#203=ORGANIZATION('STI','unknown','unknown');
#204=ORGANIZATION('STI','unknown','unknown');
#205=ORGANIZATION('STI','unknown','unknown');
#206=ORGANIZATION('STI','unknown','unknown');
#207=ORGANIZATION('STI','unknown','unknown');
#208=PERSON('1','Box','vc60',$,$,$);
#209=PERSON('2','last','first',$,$,$);
#210=PERSON('3','President','Mr.',$,$,$);
#211=PERSON_AND_ORGANIZATION(#208,#201);
#212=PERSON_AND_ORGANIZATION(#209,#202);
#213=PERSON_AND_ORGANIZATION(#210,#203);
#214=PERSON_AND_ORGANIZATION(#210,#204);
#215=PERSON_AND_ORGANIZATION(#210,#205);
#216=PERSON_AND_ORGANIZATION(#209,#206);
#217=PERSON_AND_ORGANIZATION(#210,#207);
#218=APPLIED_PERSON_AND_ORGANIZATION_ASSIGNMENT(#211,#196,(#227));
#219=APPLIED_PERSON_AND_ORGANIZATION_ASSIGNMENT(#212,#197,(#195));
#220=APPLIED_PERSON_AND_ORGANIZATION_ASSIGNMENT(#212,#198,(#195));
#221=APPLIED_PERSON_AND_ORGANIZATION_ASSIGNMENT(#215,#199,(#159));
#222=APPLIED_PERSON_AND_ORGANIZATION_ASSIGNMENT(#216,#200,(#153));
#223=PRODUCT_RELATED_PRODUCT_CATEGORY('detail','detail',(#227));
#224=APPLICATION_PROTOCOL_DEFINITION('International Standard',
'config_control_design',1994,#225);
#225=APPLICATION_CONTEXT(
'configuration controlled 3d designs of mechanical parts and assemblie
s');
#226=PRODUCT_CONTEXT('3D Mechanical Parts',#225,'mechanical');
#227=PRODUCT('Document','Document','',(#226));
#228=(
LENGTH_UNIT()
NAMED_UNIT(*)
SI_UNIT(.MILLI.,.METRE.)
);
#229=(
NAMED_UNIT(*)
PLANE_ANGLE_UNIT()
SI_UNIT($,.RADIAN.)
);
#230=DIMENSIONAL_EXPONENTS(0.,0.,0.,0.,0.,0.,0.);
#231=PLANE_ANGLE_MEASURE_WITH_UNIT(PLANE_ANGLE_MEASURE(0.01745329252),#229);
#232=(
CONVERSION_BASED_UNIT('DEGREES',#231)
NAMED_UNIT(#230)
PLANE_ANGLE_UNIT()
);
#233=(
NAMED_UNIT(*)
SI_UNIT($,.STERADIAN.)
SOLID_ANGLE_UNIT()
);
#234=UNCERTAINTY_MEASURE_WITH_UNIT(LENGTH_MEASURE(0.001),#228,
'DISTANCE_ACCURACY_VALUE',
'Maximum model space distance between geometric entities at asserted c
onnectivities');
#235=(
GEOMETRIC_REPRESENTATION_CONTEXT(3)
GLOBAL_UNCERTAINTY_ASSIGNED_CONTEXT((#234))
GLOBAL_UNIT_ASSIGNED_CONTEXT((#233,#232,#228))
REPRESENTATION_CONTEXT('ID1','3D')
);
#236=SHAPE_REPRESENTATION('Document',(#237,#250),#235);
#237=AXIS2_PLACEMENT_3D('',#267,#251,#252);
#238=AXIS2_PLACEMENT_3D('',#268,#253,$);
#239=AXIS2_PLACEMENT_3D('',#269,#254,$);
#240=AXIS2_PLACEMENT_3D('',#270,#255,$);
#241=AXIS2_PLACEMENT_3D('',#271,#256,$);
#242=AXIS2_PLACEMENT_3D('',#300,#257,$);
#243=AXIS2_PLACEMENT_3D('',#301,#258,$);
#244=AXIS2_PLACEMENT_3D('',#302,#259,$);
#245=AXIS2_PLACEMENT_3D('',#303,#260,$);
#246=AXIS2_PLACEMENT_3D('',#332,#261,$);
#247=AXIS2_PLACEMENT_3D('',#333,#262,$);
#248=AXIS2_PLACEMENT_3D('',#334,#263,$);
#249=AXIS2_PLACEMENT_3D('',#335,#264,$);
#250=AXIS2_PLACEMENT_3D('',#364,#265,#266);
#251=DIRECTION('',(0.,0.,1.));
#252=DIRECTION('',(1.,0.,0.));
#253=DIRECTION('',(0.,0.,1.));
#254=DIRECTION('',(0.,0.,-1.));
#255=DIRECTION('',(0.,0.,1.));
#256=DIRECTION('',(0.,0.,1.));
#257=DIRECTION('',(0.,0.,1.));
#258=DIRECTION('',(0.,0.,-1.));
#259=DIRECTION('',(0.,0.,1.));
#260=DIRECTION('',(0.,0.,1.));
#261=DIRECTION('',(0.,0.,1.));
#262=DIRECTION('',(0.,0.,-1.));
#263=DIRECTION('',(0.,0.,1.));
#264=DIRECTION('',(0.,0.,1.));
#265=DIRECTION('',(0.,0.,1.));
#266=DIRECTION('',(1.,0.,0.));
#267=CARTESIAN_POINT('',(0.,0.,0.));
#268=CARTESIAN_POINT('',(0.,0.,1448.29842655842));
#269=CARTESIAN_POINT('',(324.012,-324.012,1433.29842655842));
#270=CARTESIAN_POINT('',(-324.012,-324.012,1463.29842655842));
#271=CARTESIAN_POINT('',(-3.34685337296842E-29,-2.00971834711523E-14,1448.29842655842));
#272=CARTESIAN_POINT('',(270.,-2.16138001763763E-15,1433.29842655842));
#273=CARTESIAN_POINT('',(-270.,5.39774156826308E-15,1433.29842655842));
#274=CARTESIAN_POINT('',(-270.,5.39774156826308E-15,1463.29842655842));
#275=CARTESIAN_POINT('',(270.,-2.16138001763763E-15,1463.29842655842));
#276=CARTESIAN_POINT('',(270.,0.,1433.29842655842));
#277=CARTESIAN_POINT('',(270.,270.,1433.29842655842));
#278=CARTESIAN_POINT('',(1.61932247047892E-14,270.,1433.29842655842));
#279=CARTESIAN_POINT('',(-270.,270.,1433.29842655842));
#280=CARTESIAN_POINT('',(-270.,3.23864494095785E-14,1433.29842655842));
#281=CARTESIAN_POINT('',(-270.,0.,1433.29842655842));
#282=CARTESIAN_POINT('',(-270.,0.,1463.29842655842));
#283=CARTESIAN_POINT('',(-270.,3.23864494095785E-14,1463.29842655842));
#284=CARTESIAN_POINT('',(-270.,270.,1463.29842655842));
#285=CARTESIAN_POINT('',(1.61932247047892E-14,270.,1463.29842655842));
#286=CARTESIAN_POINT('',(270.,270.,1463.29842655842));
#287=CARTESIAN_POINT('',(270.,0.,1463.29842655842));
#288=CARTESIAN_POINT('',(270.,0.,1463.29842655842));
#289=CARTESIAN_POINT('',(270.,0.,1433.29842655842));
#290=CARTESIAN_POINT('',(-270.,0.,1433.29842655842));
#291=CARTESIAN_POINT('',(-270.,-270.,1433.29842655842));
#292=CARTESIAN_POINT('',(-6.48414005291289E-15,-270.,1433.29842655842));
#293=CARTESIAN_POINT('',(270.,-270.,1433.29842655842));
#294=CARTESIAN_POINT('',(270.,-1.29682801058258E-14,1433.29842655842));
#295=CARTESIAN_POINT('',(270.,-1.29682801058258E-14,1463.29842655842));
#296=CARTESIAN_POINT('',(270.,-270.,1463.29842655842));
#297=CARTESIAN_POINT('',(-6.48414005291289E-15,-270.,1463.29842655842));
#298=CARTESIAN_POINT('',(-270.,-270.,1463.29842655842));
#299=CARTESIAN_POINT('',(-270.,0.,1463.29842655842));
#300=CARTESIAN_POINT('',(0.,0.,1448.29842655842));
#301=CARTESIAN_POINT('',(324.012,-324.012,1433.29842655842));
#302=CARTESIAN_POINT('',(-324.012,-324.012,1463.29842655842));
#303=CARTESIAN_POINT('',(-3.34685337296842E-29,-2.00971834711523E-14,1448.29842655842));
#304=CARTESIAN_POINT('',(270.,-2.16138001763763E-15,1433.29842655842));
#305=CARTESIAN_POINT('',(-270.,5.39774156826308E-15,1433.29842655842));
#306=CARTESIAN_POINT('',(-270.,5.39774156826308E-15,1463.29842655842));
#307=CARTESIAN_POINT('',(270.,-2.16138001763763E-15,1463.29842655842));
#308=CARTESIAN_POINT('',(270.,0.,1433.29842655842));
#309=CARTESIAN_POINT('',(270.,270.,1433.29842655842));
#310=CARTESIAN_POINT('',(1.61932247047892E-14,270.,1433.29842655842));
#311=CARTESIAN_POINT('',(-270.,270.,1433.29842655842));
#312=CARTESIAN_POINT('',(-270.,3.23864494095785E-14,1433.29842655842));
#313=CARTESIAN_POINT('',(-270.,0.,1433.29842655842));
#314=CARTESIAN_POINT('',(-270.,0.,1463.29842655842));
#315=CARTESIAN_POINT('',(-270.,3.23864494095785E-14,1463.29842655842));
#316=CARTESIAN_POINT('',(-270.,270.,1463.29842655842));
#317=CARTESIAN_POINT('',(1.61932247047892E-14,270.,1463.29842655842));
#318=CARTESIAN_POINT('',(270.,270.,1463.29842655842));
#319=CARTESIAN_POINT('',(270.,0.,1463.29842655842));
#320=CARTESIAN_POINT('',(270.,0.,1463.29842655842));
#321=CARTESIAN_POINT('',(270.,0.,1433.29842655842));
#322=CARTESIAN_POINT('',(-270.,0.,1433.29842655842));
#323=CARTESIAN_POINT('',(-270.,-270.,1433.29842655842));
#324=CARTESIAN_POINT('',(-6.48414005291289E-15,-270.,1433.29842655842));
#325=CARTESIAN_POINT('',(270.,-270.,1433.29842655842));
#326=CARTESIAN_POINT('',(270.,-1.29682801058258E-14,1433.29842655842));
#327=CARTESIAN_POINT('',(270.,-1.29682801058258E-14,1463.29842655842));
#328=CARTESIAN_POINT('',(270.,-270.,1463.29842655842));
#329=CARTESIAN_POINT('',(-6.48414005291289E-15,-270.,1463.29842655842));
#330=CARTESIAN_POINT('',(-270.,-270.,1463.29842655842));
#331=CARTESIAN_POINT('',(-270.,0.,1463.29842655842));
#332=CARTESIAN_POINT('',(0.,0.,1432.29842655842));
#333=CARTESIAN_POINT('',(360.012,-360.012,1431.29842655842));
#334=CARTESIAN_POINT('',(-360.012,-360.012,1433.29842655842));
#335=CARTESIAN_POINT('',(-1.02636836771032E-28,-6.0291550413457E-14,1432.29842655842));
#336=CARTESIAN_POINT('',(300.,-1.07150181314366E-14,1431.29842655842));
#337=CARTESIAN_POINT('',(-300.,-7.27488831836478E-15,1431.29842655842));
#338=CARTESIAN_POINT('',(-300.,-7.27488831836478E-15,1433.29842655842));
#339=CARTESIAN_POINT('',(300.,-1.07150181314366E-14,1433.29842655842));
#340=CARTESIAN_POINT('',(300.,-6.31088724176809E-30,1431.29842655842));
#341=CARTESIAN_POINT('',(300.,300.,1431.29842655842));
#342=CARTESIAN_POINT('',(-2.18246649550945E-14,300.,1431.29842655842));
#343=CARTESIAN_POINT('',(-300.,300.,1431.29842655842));
#344=CARTESIAN_POINT('',(-300.,-4.36493299101887E-14,1431.29842655842));
#345=CARTESIAN_POINT('',(-300.,0.,1431.29842655842));
#346=CARTESIAN_POINT('',(-300.,0.,1433.29842655842));
#347=CARTESIAN_POINT('',(-300.,-4.36493299101887E-14,1433.29842655842));
#348=CARTESIAN_POINT('',(-300.,300.,1433.29842655842));
#349=CARTESIAN_POINT('',(-2.18246649550945E-14,300.,1433.29842655842));
#350=CARTESIAN_POINT('',(300.,300.,1433.29842655842));
#351=CARTESIAN_POINT('',(300.,-6.31088724176809E-30,1433.29842655842));
#352=CARTESIAN_POINT('',(300.,0.,1433.29842655842));
#353=CARTESIAN_POINT('',(300.,0.,1431.29842655842));
#354=CARTESIAN_POINT('',(-300.,0.,1431.29842655842));
#355=CARTESIAN_POINT('',(-300.,-300.,1431.29842655842));
#356=CARTESIAN_POINT('',(-3.21450543943098E-14,-300.,1431.29842655842));
#357=CARTESIAN_POINT('',(300.,-300.,1431.29842655842));
#358=CARTESIAN_POINT('',(300.,-6.42901087886197E-14,1431.29842655842));
#359=CARTESIAN_POINT('',(300.,-6.42901087886197E-14,1433.29842655842));
#360=CARTESIAN_POINT('',(300.,-300.,1433.29842655842));
#361=CARTESIAN_POINT('',(-3.21450543943098E-14,-300.,1433.29842655842));
#362=CARTESIAN_POINT('',(-300.,-300.,1433.29842655842));
#363=CARTESIAN_POINT('',(-300.,0.,1433.29842655842));
#364=CARTESIAN_POINT('',(0.,0.,0.));
ENDSEC;
END-ISO-10303-21;
